  0
SECTION
  2
HEADER
  9
$ACADVER
  1
AC1015
  9
$ACADMAINTVER
 70
     6
  9
$DWGCODEPAGE
  3
ANSI_1254
  9
$INSBASE
 10
0.0
 20
0.0
 30
0.0
  9
$EXTMIN
 10
0.0
 20
0.0
 30
0.0
  9
$EXTMAX
 10
279.4
 20
215.9
 30
0.0
  9
$LIMMIN
 10
0.0
 20
0.0
  9
$LIMMAX
 10
279.4
 20
215.9
  9
$ORTHOMODE
 70
     0
  9
$REGENMODE
 70
     1
  9
$FILLMODE
 70
     1
  9
$QTEXTMODE
 70
     0
  9
$MIRRTEXT
 70
     1
  9
$LTSCALE
 40
1.0
  9
$ATTMODE
 70
     1
  9
$TEXTSIZE
 40
3.5
  9
$TRACEWID
 40
1.0
  9
$TEXTSTYLE
  7
Standard
  9
$CLAYER
  8
0
  9
$CELTYPE
  6
ByLayer
  9
$CECOLOR
 62
   256
  9
$CELTSCALE
 40
1.0
  9
$DISPSILH
 70
     0
  9
$DIMSCALE
 40
1.0
  9
$DIMASZ
 40
3.5
  9
$DIMEXO
 40
1.0
  9
$DIMDLI
 40
3.75
  9
$DIMRND
 40
0.0
  9
$DIMDLE
 40
0.0
  9
$DIMEXE
 40
1.0
  9
$DIMTP
 40
0.0
  9
$DIMTM
 40
0.0
  9
$DIMTXT
 40
3.5
  9
$DIMCEN
 40
2.5
  9
$DIMTSZ
 40
0.0
  9
$DIMTOL
 70
     0
  9
$DIMLIM
 70
     0
  9
$DIMTIH
 70
     1
  9
$DIMTOH
 70
     1
  9
$DIMSE1
 70
     0
  9
$DIMSE2
 70
     0
  9
$DIMTAD
 70
     1
  9
$DIMZIN
 70
     0
  9
$DIMBLK
  1

  9
$DIMASO
 70
     1
  9
$DIMSHO
 70
     1
  9
$DIMPOST
  1

  9
$DIMAPOST
  1

  9
$DIMALT
 70
     0
  9
$DIMALTD
 70
     3
  9
$DIMALTF
 40
0.0393700787
  9
$DIMLFAC
 40
1.0
  9
$DIMTOFL
 70
     1
  9
$DIMTVP
 40
0.0
  9
$DIMTIX
 70
     0
  9
$DIMSOXD
 70
     0
  9
$DIMSAH
 70
     0
  9
$DIMBLK1
  1

  9
$DIMBLK2
  1

  9
$DIMSTYLE
  2
ISO-25
  9
$DIMCLRD
 70
     0
  9
$DIMCLRE
 70
     0
  9
$DIMCLRT
 70
     0
  9
$DIMTFAC
 40
1.0
  9
$DIMGAP
 40
1.524
  9
$DIMJUST
 70
     0
  9
$DIMSD1
 70
     0
  9
$DIMSD2
 70
     0
  9
$DIMTOLJ
 70
     0
  9
$DIMTZIN
 70
     0
  9
$DIMALTZ
 70
     0
  9
$DIMALTTZ
 70
     0
  9
$DIMUPT
 70
     0
  9
$DIMDEC
 70
     2
  9
$DIMTDEC
 70
     2
  9
$DIMALTU
 70
     2
  9
$DIMALTTD
 70
     3
  9
$DIMTXSTY
  7
Standard
  9
$DIMAUNIT
 70
     0
  9
$DIMADEC
 70
     2
  9
$DIMALTRND
 40
0.0
  9
$DIMAZIN
 70
     0
  9
$DIMDSEP
 70
    44
  9
$DIMATFIT
 70
     3
  9
$DIMFRAC
 70
     0
  9
$DIMLDRBLK
  1

  9
$DIMLUNIT
 70
     2
  9
$DIMLWD
 70
    -2
  9
$DIMLWE
 70
    -2
  9
$DIMTMOVE
 70
     0
  9
$LUNITS
 70
     2
  9
$LUPREC
 70
     2
  9
$SKETCHINC
 40
1.0
  9
$FILLETRAD
 40
10.0
  9
$AUNITS
 70
     0
  9
$AUPREC
 70
     2
  9
$MENU
  1
.
  9
$ELEVATION
 40
0.0
  9
$PELEVATION
 40
0.0
  9
$THICKNESS
 40
0.0
  9
$LIMCHECK
 70
     0
  9
$CHAMFERA
 40
0.0
  9
$CHAMFERB
 40
0.0
  9
$CHAMFERC
 40
0.0
  9
$CHAMFERD
 40
0.0
  9
$SKPOLY
 70
     0
  9
$TDCREATE
 40
2458985.683260544
  9
$TDUCREATE
 40
2458985.558260544
  9
$TDUPDATE
 40
2458985.683260914
  9
$TDUUPDATE
 40
2458985.558260914
  9
$TDINDWG
 40
0.0000000116
  9
$TDUSRTIMER
 40
0.0000000116
  9
$USRTIMER
 70
     1
  9
$ANGBASE
 50
0.0
  9
$ANGDIR
 70
     0
  9
$PDMODE
 70
     0
  9
$PDSIZE
 40
-1.0
  9
$PLINEWID
 40
0.0
  9
$SPLFRAME
 70
     0
  9
$SPLINETYPE
 70
     6
  9
$SPLINESEGS
 70
     8
  9
$HANDSEED
  5
CB
  9
$SURFTAB1
 70
     6
  9
$SURFTAB2
 70
     6
  9
$SURFTYPE
 70
     6
  9
$SURFU
 70
     6
  9
$SURFV
 70
     6
  9
$UCSBASE
  2

  9
$UCSNAME
  2

  9
$UCSORG
 10
0.0
 20
0.0
 30
0.0
  9
$UCSXDIR
 10
1.0
 20
0.0
 30
0.0
  9
$UCSYDIR
 10
0.0
 20
1.0
 30
0.0
  9
$UCSORTHOREF
  2

  9
$UCSORTHOVIEW
 70
     0
  9
$UCSORGTOP
 10
0.0
 20
0.0
 30
0.0
  9
$UCSORGBOTTOM
 10
0.0
 20
0.0
 30
0.0
  9
$UCSORGLEFT
 10
0.0
 20
0.0
 30
0.0
  9
$UCSORGRIGHT
 10
0.0
 20
0.0
 30
0.0
  9
$UCSORGFRONT
 10
0.0
 20
0.0
 30
0.0
  9
$UCSORGBACK
 10
0.0
 20
0.0
 30
0.0
  9
$PUCSBASE
  2

  9
$PUCSNAME
  2

  9
$PUCSORG
 10
0.0
 20
0.0
 30
0.0
  9
$PUCSXDIR
 10
1.0
 20
0.0
 30
0.0
  9
$PUCSYDIR
 10
0.0
 20
1.0
 30
0.0
  9
$PUCSORTHOREF
  2

  9
$PUCSORTHOVIEW
 70
     0
  9
$PUCSORGTOP
 10
0.0
 20
0.0
 30
0.0
  9
$PUCSORGBOTTOM
 10
0.0
 20
0.0
 30
0.0
  9
$PUCSORGLEFT
 10
0.0
 20
0.0
 30
0.0
  9
$PUCSORGRIGHT
 10
0.0
 20
0.0
 30
0.0
  9
$PUCSORGFRONT
 10
0.0
 20
0.0
 30
0.0
  9
$PUCSORGBACK
 10
0.0
 20
0.0
 30
0.0
  9
$USERI1
 70
     0
  9
$USERI2
 70
     0
  9
$USERI3
 70
     0
  9
$USERI4
 70
     0
  9
$USERI5
 70
     0
  9
$USERR1
 40
0.0
  9
$USERR2
 40
0.0
  9
$USERR3
 40
0.0
  9
$USERR4
 40
0.0
  9
$USERR5
 40
0.0
  9
$WORLDVIEW
 70
     1
  9
$SHADEDGE
 70
     3
  9
$SHADEDIF
 70
    70
  9
$TILEMODE
 70
     1
  9
$MAXACTVP
 70
    64
  9
$PINSBASE
 10
0.0
 20
0.0
 30
0.0
  9
$PLIMCHECK
 70
     0
  9
$PEXTMIN
 10
1.0000000000E+20
 20
1.0000000000E+20
 30
1.0000000000E+20
  9
$PEXTMAX
 10
-1.0000000000E+20
 20
-1.0000000000E+20
 30
-1.0000000000E+20
  9
$PLIMMIN
 10
0.0
 20
0.0
  9
$PLIMMAX
 10
420.0
 20
297.0
  9
$UNITMODE
 70
     0
  9
$VISRETAIN
 70
     1
  9
$PLINEGEN
 70
     0
  9
$PSLTSCALE
 70
     1
  9
$TREEDEPTH
 70
  3020
  9
$CMLSTYLE
  2
Standard
  9
$CMLJUST
 70
     0
  9
$CMLSCALE
 40
20.0
  9
$PROXYGRAPHICS
 70
     1
  9
$MEASUREMENT
 70
     1
  9
$CELWEIGHT
370
    -1
  9
$ENDCAPS
280
     0
  9
$JOINSTYLE
280
     0
  9
$LWDISPLAY
290
     1
  9
$INSUNITS
 70
     4
  9
$HYPERLINKBASE
  1

  9
$STYLESHEET
  1

  9
$XEDIT
290
     1
  9
$CEPSNTYPE
380
     0
  9
$PSTYLEMODE
290
     1
  9
$FINGERPRINTGUID
  2
{40fe77aa-4c83-48d4-b687-a5e81a9f726e}
  9
$VERSIONGUID
  2
{FAEB1C32-E019-11D5-929B-00C0DF256EC4}
  9
$EXTNAMES
290
     1
  9
$PSVPSCALE
 40
0.0
  9
$OLESTARTUP
290
     0
  0
ENDSEC
  0
SECTION
  2
CLASSES
  0
CLASS
  1
ACDBDICTIONARYWDFLT
  2
AcDbDictionaryWithDefault
  3
ObjectDBX Classes
 90
        0
280
     0
281
     0
  0
CLASS
  1
VISUALSTYLE
  2
AcDbVisualStyle
  3
ObjectDBX Classes
 90
     4095
280
     0
281
     0
  0
CLASS
  1
MATERIAL
  2
AcDbMaterial
  3
ObjectDBX Classes
 90
     1153
280
     0
281
     0
  0
CLASS
  1
SCALE
  2
AcDbScale
  3
ObjectDBX Classes
 90
     1153
280
     0
281
     0
  0
CLASS
  1
TABLESTYLE
  2
AcDbTableStyle
  3
ObjectDBX Classes
 90
     4095
280
     0
281
     0
  0
CLASS
  1
MLEADERSTYLE
  2
AcDbMLeaderStyle
  3
ACDB_MLEADERSTYLE_CLASS
 90
     4095
280
     0
281
     0
  0
CLASS
  1
SUN
  2
AcDbSun
  3
SCENEOE
 90
     1153
280
     0
281
     0
  0
CLASS
  1
ACDBPLACEHOLDER
  2
AcDbPlaceHolder
  3
ObjectDBX Classes
 90
        0
280
     0
281
     0
  0
CLASS
  1
LAYOUT
  2
AcDbLayout
  3
ObjectDBX Classes
 90
        0
280
     0
281
     0
  0
ENDSEC
  0
SECTION
  2
TABLES
  0
TABLE
  2
VPORT
  5
8
330
0
100
AcDbSymbolTable
 70
     1
  0
VPORT
  5
29
330
8
100
AcDbSymbolTableRecord
100
AcDbViewportTableRecord
  2
*Active
 70
     0
 10
0.0
 20
0.0
 11
1.0
 21
1.0
 12
139.7
 22
107.95
 13
0.0
 23
0.0
 14
10.0
 24
10.0
 15
10.0
 25
10.0
 16
0.0
 26
0.0
 36
1.0
 17
0.0
 27
0.0
 37
0.0
 40
215.9
 41
1.2941176471
 42
50.0
 43
0.0
 44
0.0
 50
0.0
 51
0.0
 71
     0
 72
  2000
 73
     1
 74
     3
 75
     0
 76
     0
 77
     0
 78
     0
281
     0
 65
     1
110
0.0
120
0.0
130
0.0
111
1.0
121
0.0
131
0.0
112
0.0
122
1.0
132
0.0
 79
     0
146
0.0
  0
ENDTAB
  0
TABLE
  2
LTYPE
  5
5
330
0
100
AcDbSymbolTable
 70
     6
  0
LTYPE
  5
14
330
5
100
AcDbSymbolTableRecord
100
AcDbLinetypeTableRecord
  2
ByBlock
 70
     0
  3

 72
    65
 73
     0
 40
0.0
  0
LTYPE
  5
15
330
5
100
AcDbSymbolTableRecord
100
AcDbLinetypeTableRecord
  2
ByLayer
 70
     0
  3

 72
    65
 73
     0
 40
0.0
  0
LTYPE
  5
16
330
5
100
AcDbSymbolTableRecord
100
AcDbLinetypeTableRecord
  2
Continuous
 70
     0
  3
Solid line
 72
    65
 73
     0
 40
0.0
  0
LTYPE
  5
6E
330
5
100
AcDbSymbolTableRecord
100
AcDbLinetypeTableRecord
  2
HIDDEN
 70
     0
  3
Hidden __ __ __ __ __ __ __ __ __ __ __ __ __ __
 72
    65
 73
     2
 40
1.905
 49
1.27
 74
     0
 49
-0.635
 74
     0
  0
LTYPE
  5
6F
330
5
100
AcDbSymbolTableRecord
100
AcDbLinetypeTableRecord
  2
PHANTOM
 70
     0
  3
Phantom ______  __  __  ______  __  __  ______
 72
    65
 73
     6
 40
12.7
 49
6.35
 74
     0
 49
-1.27
 74
     0
 49
1.27
 74
     0
 49
-1.27
 74
     0
 49
1.27
 74
     0
 49
-1.27
 74
     0
  0
LTYPE
  5
70
330
5
100
AcDbSymbolTableRecord
100
AcDbLinetypeTableRecord
  2
CENTER
 70
     0
  3
Center ____ _ ____ _ ____ _ ____ _ ____ _ ____
 72
    65
 73
     4
 40
10.16
 49
6.35
 74
     0
 49
-1.27
 74
     0
 49
1.27
 74
     0
 49
-1.27
 74
     0
  0
LTYPE
  5
71
330
5
100
AcDbSymbolTableRecord
100
AcDbLinetypeTableRecord
  2
CENTERX2
 70
     0
  3
Center (2x) ________  __  ________  __  _____
 72
    65
 73
     4
 40
20.32
 49
12.7
 74
     0
 49
-2.54
 74
     0
 49
2.54
 74
     0
 49
-2.54
 74
     0
  0
LTYPE
  5
72
330
5
100
AcDbSymbolTableRecord
100
AcDbLinetypeTableRecord
  2
DOT2
 70
     0
  3
Dot (.5x) ........................................
 72
    65
 73
     2
 40
0.635
 49
0.0
 74
     0
 49
-0.635
 74
     0
  0
ENDTAB
  0
TABLE
  2
LAYER
  5
2
330
0
100
AcDbSymbolTable
 70
    17
  0
LAYER
  5
10
330
2
100
AcDbSymbolTableRecord
100
AcDbLayerTableRecord
  2
0
 70
     0
 62
     7
  6
Continuous
370
    -3
390
F
  0
LAYER
  5
73
330
2
100
AcDbSymbolTableRecord
100
AcDbLayerTableRecord
  2
FORMAT
 70
     0
 62
     7
  6
Continuous
370
    -3
390
F
  0
LAYER
  5
74
330
2
100
AcDbSymbolTableRecord
100
AcDbLayerTableRecord
  2
YARDIMCI_GEOMETRI
 70
     0
 62
    -6
  6
Continuous
290
     0
370
    -3
390
F
  0
LAYER
  5
75
330
2
100
AcDbSymbolTableRecord
100
AcDbLayerTableRecord
  2
SAYFA_CERCEVESI
 70
     0
 62
     7
  6
Continuous
370
    25
390
F
  0
LAYER
  5
76
330
2
100
AcDbSymbolTableRecord
100
AcDbLayerTableRecord
  2
ANTET
 70
     0
 62
     7
  6
Continuous
370
    -3
390
F
  0
LAYER
  5
77
330
2
100
AcDbSymbolTableRecord
100
AcDbLayerTableRecord
  2
OLCU
 70
     0
 62
   150
  6
Continuous
370
    -3
390
F
  0
LAYER
  5
78
330
2
100
AcDbSymbolTableRecord
100
AcDbLayerTableRecord
  2
METIN
 70
     0
 62
    96
  6
Continuous
370
    -3
390
F
  0
LAYER
  5
79
330
2
100
AcDbSymbolTableRecord
100
AcDbLayerTableRecord
  2
BALON
 70
     0
 62
     5
  6
Continuous
370
    -3
390
F
  0
LAYER
  5
7A
330
2
100
AcDbSymbolTableRecord
100
AcDbLayerTableRecord
  2
VURGU
 70
     0
 62
     7
  6
Continuous
370
    -3
390
F
  0
LAYER
  5
7B
330
2
100
AcDbSymbolTableRecord
100
AcDbLayerTableRecord
  2
SILIK
 70
     0
 62
     7
  6
Continuous
370
    -3
390
F
  0
LAYER
  5
7C
330
2
100
AcDbSymbolTableRecord
100
AcDbLayerTableRecord
  2
MODEL
 70
     0
 62
     7
  6
Continuous
370
    -3
390
F
  0
LAYER
  5
7D
330
2
100
AcDbSymbolTableRecord
100
AcDbLayerTableRecord
  2
DETAYLANDıRMA
 70
     0
 62
   190
  6
Continuous
370
    -3
390
F
  0
LAYER
  5
7E
330
2
100
AcDbSymbolTableRecord
100
AcDbLayerTableRecord
  2
TOLERANS
 70
     0
 62
   230
  6
Continuous
370
    -3
390
F
  0
LAYER
  5
7F
330
2
100
AcDbSymbolTableRecord
100
AcDbLayerTableRecord
  2
MERKEZ_CIZGILERI
 70
     0
 62
    30
  6
Continuous
370
    -3
390
F
  0
LAYER
  5
80
330
2
100
AcDbSymbolTableRecord
100
AcDbLayerTableRecord
  2
KESIT-DETAY_CIZGILERI
 70
     0
 62
     7
  6
Continuous
370
    -3
390
F
  0
LAYER
  5
81
330
2
100
AcDbSymbolTableRecord
100
AcDbLayerTableRecord
  2
\U+041E\U+0421\U+0415\U+0412\U+042B\U+0415
 70
     0
 62
     7
  6
Continuous
370
    -3
390
F
  0
LAYER
  5
82
330
2
100
AcDbSymbolTableRecord
100
AcDbLayerTableRecord
  2
\U+0412\U+041E\U+0414\U+042F\U+041D\U+042B\U+0415_\U+0417\U+041D\U+0410\U+041A\U+0418
 70
     0
 62
    11
  6
Continuous
370
    -3
390
F
  0
ENDTAB
  0
TABLE
  2
STYLE
  5
3
330
0
100
AcDbSymbolTable
 70
     1
  0
STYLE
  5
11
330
3
100
AcDbSymbolTableRecord
100
AcDbTextStyleTableRecord
  2
Standard
 70
     0
 40
0.0
 41
1.0
 50
0.0
 71
     0
 42
3.5
  3
txt
  4

  0
ENDTAB
  0
TABLE
  2
VIEW
  5
6
330
0
100
AcDbSymbolTable
 70
     0
  0
ENDTAB
  0
TABLE
  2
UCS
  5
7
330
0
100
AcDbSymbolTable
 70
     0
  0
ENDTAB
  0
TABLE
  2
APPID
  5
9
330
0
100
AcDbSymbolTable
 70
     1
  0
APPID
  5
12
330
9
100
AcDbSymbolTableRecord
100
AcDbRegAppTableRecord
  2
ACAD
 70
     0
  0
ENDTAB
  0
TABLE
  2
DIMSTYLE
  5
A
330
0
100
AcDbSymbolTable
 70
     1
100
AcDbDimStyleTable
  0
DIMSTYLE
105
27
330
A
100
AcDbSymbolTableRecord
100
AcDbDimStyleTableRecord
  2
ISO-25
 70
     0
 41
2.5
 42
0.625
 43
3.75
 44
1.25
 73
     0
 74
     0
 77
     1
 78
     8
140
2.5
141
2.5
143
0.0393700787
147
0.625
171
     3
172
     1
178
     0
271
     2
272
     2
274
     3
278
    44
283
     0
284
     8
340
11
  0
ENDTAB
  0
TABLE
  2
BLOCK_RECORD
  5
1
330
0
100
AcDbSymbolTable
 70
     3
  0
BLOCK_RECORD
  5
1F
330
1
100
AcDbSymbolTableRecord
100
AcDbBlockTableRecord
  2
*Model_Space
340
22
  0
BLOCK_RECORD
  5
1B
330
1
100
AcDbSymbolTableRecord
100
AcDbBlockTableRecord
  2
*Paper_Space
340
1E
  0
BLOCK_RECORD
  5
23
330
1
100
AcDbSymbolTableRecord
100
AcDbBlockTableRecord
  2
*Paper_Space0
340
26
  0
BLOCK_RECORD
  5
88
330
1
100
AcDbSymbolTableRecord
100
AcDbBlockTableRecord
  2
SW_CENTERMARKSYMBOL_0
340
0
102
{BLKREFS
331
93
102
}
  0
BLOCK_RECORD
  5
B2
330
1
100
AcDbSymbolTableRecord
100
AcDbBlockTableRecord
  2
SW_CENTERMARKSYMBOL_1
340
0
102
{BLKREFS
331
BD
102
}
  0
ENDTAB
  0
ENDSEC
  0
SECTION
  2
BLOCKS
  0
BLOCK
  5
20
330
1F
100
AcDbEntity
  8
0
100
AcDbBlockBegin
  2
*Model_Space
 70
     0
 10
0.0
 20
0.0
 30
0.0
  3
*Model_Space
  1

  0
ENDBLK
  5
21
330
1F
100
AcDbEntity
  8
0
100
AcDbBlockEnd
  0
BLOCK
  5
1C
330
1B
100
AcDbEntity
 67
     1
  8
0
100
AcDbBlockBegin
  2
*Paper_Space
 70
     0
 10
0.0
 20
0.0
 30
0.0
  3
*Paper_Space
  1

  0
ENDBLK
  5
1D
330
1B
100
AcDbEntity
 67
     1
  8
0
100
AcDbBlockEnd
  0
BLOCK
  5
24
330
23
100
AcDbEntity
  8
0
100
AcDbBlockBegin
  2
*Paper_Space0
 70
     0
 10
0.0
 20
0.0
 30
0.0
  3
*Paper_Space0
  1

  0
ENDBLK
  5
25
330
23
100
AcDbEntity
  8
0
100
AcDbBlockEnd
  0
BLOCK
  5
89
330
88
100
AcDbEntity
  8
0
100
AcDbBlockBegin
  2
SW_CENTERMARKSYMBOL_0
 70
     0
 10
0.0
 20
0.0
 30
0.0
  3
SW_CENTERMARKSYMBOL_0
  1

  0
LINE
  5
8B
330
88
100
AcDbEntity
  8
FORMAT
 62
     0
100
AcDbLine
 10
0.0
 20
0.0
 30
0.0
 11
0.0
 21
2.5
 31
0.0
  0
LINE
  5
8C
330
88
100
AcDbEntity
  8
FORMAT
 62
     0
100
AcDbLine
 10
0.0
 20
0.0
 30
0.0
 11
-2.5
 21
0.0
 31
0.0
  0
LINE
  5
8D
330
88
100
AcDbEntity
  8
FORMAT
 62
     0
100
AcDbLine
 10
0.0
 20
0.0
 30
0.0
 11
0.0
 21
-2.5
 31
0.0
  0
LINE
  5
8E
330
88
100
AcDbEntity
  8
FORMAT
 62
     0
100
AcDbLine
 10
0.0
 20
0.0
 30
0.0
 11
2.5
 21
0.0
 31
0.0
  0
LINE
  5
8F
330
88
100
AcDbEntity
  8
FORMAT
 62
     0
100
AcDbLine
 10
0.0
 20
5.0
 30
0.0
 11
0.0
 21
127.5
 31
0.0
  0
LINE
  5
90
330
88
100
AcDbEntity
  8
FORMAT
 62
     0
100
AcDbLine
 10
-5.0
 20
0.0
 30
0.0
 11
-127.5
 21
0.0
 31
0.0
  0
LINE
  5
91
330
88
100
AcDbEntity
  8
FORMAT
 62
     0
100
AcDbLine
 10
0.0
 20
-5.0
 30
0.0
 11
0.0
 21
-127.5
 31
0.0
  0
LINE
  5
92
330
88
100
AcDbEntity
  8
FORMAT
 62
     0
100
AcDbLine
 10
5.0
 20
0.0
 30
0.0
 11
127.5
 21
0.0
 31
0.0
  0
ENDBLK
  5
8A
330
88
100
AcDbEntity
  8
0
100
AcDbBlockEnd
  0
BLOCK
  5
B3
330
B2
100
AcDbEntity
  8
0
100
AcDbBlockBegin
  2
SW_CENTERMARKSYMBOL_1
 70
     0
 10
0.0
 20
0.0
 30
0.0
  3
SW_CENTERMARKSYMBOL_1
  1

  0
LINE
  5
B5
330
B2
100
AcDbEntity
  8
FORMAT
 62
     0
100
AcDbLine
 10
0.0
 20
0.0
 30
0.0
 11
0.0
 21
2.5
 31
0.0
  0
LINE
  5
B6
330
B2
100
AcDbEntity
  8
FORMAT
 62
     0
100
AcDbLine
 10
0.0
 20
0.0
 30
0.0
 11
-2.5
 21
0.0
 31
0.0
  0
LINE
  5
B7
330
B2
100
AcDbEntity
  8
FORMAT
 62
     0
100
AcDbLine
 10
0.0
 20
0.0
 30
0.0
 11
0.0
 21
-2.5
 31
0.0
  0
LINE
  5
B8
330
B2
100
AcDbEntity
  8
FORMAT
 62
     0
100
AcDbLine
 10
0.0
 20
0.0
 30
0.0
 11
2.5
 21
0.0
 31
0.0
  0
LINE
  5
B9
330
B2
100
AcDbEntity
  8
FORMAT
 62
     0
100
AcDbLine
 10
0.0
 20
5.0
 30
0.0
 11
0.0
 21
82.5
 31
0.0
  0
LINE
  5
BA
330
B2
100
AcDbEntity
  8
FORMAT
 62
     0
100
AcDbLine
 10
-5.0
 20
0.0
 30
0.0
 11
-82.5
 21
0.0
 31
0.0
  0
LINE
  5
BB
330
B2
100
AcDbEntity
  8
FORMAT
 62
     0
100
AcDbLine
 10
0.0
 20
-5.0
 30
0.0
 11
0.0
 21
-82.5
 31
0.0
  0
LINE
  5
BC
330
B2
100
AcDbEntity
  8
FORMAT
 62
     0
100
AcDbLine
 10
5.0
 20
0.0
 30
0.0
 11
82.5
 21
0.0
 31
0.0
  0
ENDBLK
  5
B4
330
B2
100
AcDbEntity
  8
0
100
AcDbBlockEnd
  0
ENDSEC
  0
SECTION
  2
ENTITIES
  0
LINE
  5
83
330
1F
100
AcDbEntity
  8
0
  6
Continuous
 62
     7
370
    25
100
AcDbLine
 10
172.2323121466
 20
22.5825803402
 30
0.0
 11
343.1142104436
 21
22.5825803402
 31
0.0
  0
LINE
  5
84
330
1F
100
AcDbEntity
  8
0
  6
Continuous
 62
     7
370
    25
100
AcDbLine
 10
343.1142104436
 20
182.5825803402
 30
0.0
 11
172.2061752963
 21
182.5825803402
 31
0.0
  0
CIRCLE
  5
85
330
1F
100
AcDbEntity
  8
0
  6
Continuous
 62
     7
370
    25
100
AcDbCircle
 10
76.1142104436
 20
102.5825803402
 30
0.0
 40
102.3
  0
CIRCLE
  5
86
330
1F
100
AcDbEntity
  8
0
  6
Continuous
 62
     7
370
    25
100
AcDbCircle
 10
76.1142104436
 20
102.5825803402
 30
0.0
 40
125.0
  0
LINE
  5
87
330
1F
100
AcDbEntity
  8
0
  6
Continuous
 62
     7
370
    25
100
AcDbLine
 10
343.1142104436
 20
182.5825803402
 30
0.0
 11
343.1142104436
 21
22.5825803402
 31
0.0
  0
INSERT
  5
93
330
1F
100
AcDbEntity
  8
FORMAT
100
AcDbBlockReference
  2
SW_CENTERMARKSYMBOL_0
 10
76.1142104436
 20
102.5825803402
 30
0.0
  0
LINE
  5
94
330
1F
100
AcDbEntity
  8
0
  6
Continuous
 62
     7
370
    25
100
AcDbLine
 10
-48.8857895564
 20
-115.6541339057
 30
0.0
 11
-48.8857895564
 21
-705.6541339057
 31
0.0
  0
LINE
  5
95
330
1F
100
AcDbEntity
  8
0
  6
Continuous
 62
     7
370
    25
100
AcDbLine
 10
201.1142104436
 20
-330.6987054432
 30
0.0
 11
201.1142104436
 21
-115.6541339057
 31
0.0
  0
LINE
  5
96
330
1F
100
AcDbEntity
  8
0
  6
Continuous
 62
     7
370
    25
100
AcDbLine
 10
201.1142104436
 20
-705.6541339057
 30
0.0
 11
201.1142104436
 21
-490.6541339057
 31
0.0
  0
LINE
  5
97
330
1F
100
AcDbEntity
  8
0
  6
Continuous
 62
     7
370
    25
100
AcDbLine
 10
201.1142104436
 20
-490.6541339057
 30
0.0
 11
343.1142104436
 21
-490.6541339057
 31
0.0
  0
LINE
  5
98
330
1F
100
AcDbEntity
  8
0
  6
Continuous
 62
     7
370
    25
100
AcDbLine
 10
343.1142104436
 20
-330.6541339057
 30
0.0
 11
201.0856667633
 21
-330.6541339057
 31
0.0
  0
SPLINE
  5
99
330
1F
100
AcDbEntity
  8
0
  6
Continuous
 62
     7
370
    25
100
AcDbSpline
210
0.0
220
0.0
230
1.0
 70
     8
 71
     3
 72
    48
 73
    44
 74
     0
 42
0.000000001
 43
0.00000001
 40
0.0
 40
0.0
 40
0.0
 40
0.0
 40
0.0064214004811857
 40
0.0300464728507727
 40
0.0536723516207398
 40
0.0754118438327064
 40
0.0971525484154447
 40
0.1194421815529857
 40
0.1417333674695642
 40
0.16513361552585
 40
0.1885355068667874
 40
0.2124499135886724
 40
0.2363654636762068
 40
0.2633104417351615
 40
0.2902556787511893
 40
0.3178837296438592
 40
0.3455095511787642
 40
0.3687555714318081
 40
0.3919990347691383
 40
0.4158593389477457
 40
0.4397158168195023
 40
0.4630097631115741
 40
0.4863012701306649
 40
0.5105212256171151
 40
0.5347420831953665
 40
0.5548220597786007
 40
0.5749037831414218
 40
0.595477888655838
 40
0.6160540558746552
 40
0.6430355892654348
 40
0.6700211528604896
 40
0.697777840442142
 40
0.7255359875478294
 40
0.7528769497306007
 40
0.7802170525211293
 40
0.808300661887899
 40
0.8363814963112703
 40
0.8643759737951221
 40
0.8923666779436003
 40
0.9214853666772396
 40
0.9506000940137997
 40
0.9751901692667148
 40
1.0
 40
1.0
 40
1.0
 40
1.0
 10
201.08566225415
 20
-330.6987054431602
 30
0.0
 10
201.094009301248
 20
-330.6856807109578
 30
0.0
 10
201.1330660965299
 20
-330.6247364880187
 30
0.0
 10
200.9063096699881
 20
-330.9785457787847
 30
0.0
 10
200.4122792864471
 20
-331.7543281795897
 30
0.0
 10
199.6524007720801
 20
-332.9554462962565
 30
0.0
 10
198.689574871875
 20
-334.4943913017988
 30
0.0
 10
197.5048809300526
 20
-336.413627367991
 30
0.0
 10
196.0969819567732
 20
-338.7361873690809
 30
0.0
 10
194.4879113135713
 20
-341.4497787321543
 30
0.0
 10
192.6878417688289
 20
-344.5719969561624
 30
0.0
 10
190.7494539734591
 20
-348.0489948778186
 30
0.0
 10
188.6203469838991
 20
-352.0289616132806
 30
0.0
 10
186.3404096300224
 20
-356.5173309561695
 30
0.0
 10
183.936802348284
 20
-361.582878273903
 30
0.0
 10
181.5553635555255
 20
-367.0448189288693
 30
0.0
 10
179.3865842299654
 20
-372.5870888542872
 30
0.0
 10
177.4907535056933
 20
-378.0887122291135
 30
0.0
 10
175.8692417781791
 20
-383.5303893526163
 30
0.0
 10
174.4682379589112
 20
-389.226390331926
 30
0.0
 10
173.3517982668756
 20
-395.1062942063804
 30
0.0
 10
172.5777904416366
 20
-401.0794394924889
 30
0.0
 10
172.1572687876144
 20
-407.1733929279619
 30
0.0
 10
172.1336361077114
 20
-413.3838610688791
 30
0.0
 10
172.4921070452131
 20
-419.2897294728736
 30
0.0
 10
173.1493207331789
 20
-424.7630887813082
 30
0.0
 10
174.0153319731355
 20
-429.8327965491532
 30
0.0
 10
175.1162607262591
 20
-434.8207083716082
 30
0.0
 10
176.5581187792852
 20
-440.2096170912228
 30
0.0
 10
178.3654150576535
 20
-445.8800513258283
 30
0.0
 10
180.5544859867521
 20
-451.7900950740337
 30
0.0
 10
182.9044715403549
 20
-457.4234459431213
 30
0.0
 10
185.3379395523054
 20
-462.7261150802501
 30
0.0
 10
187.766214527724
 20
-467.6334823496054
 30
0.0
 10
190.1547361166088
 20
-472.1739744745927
 30
0.0
 10
192.454993659355
 20
-476.3337179071003
 30
0.0
 10
194.6069956312265
 20
-480.0670642703945
 30
0.0
 10
196.531830529612
 20
-483.2993724808668
 30
0.0
 10
198.2045036360199
 20
-486.0347902600799
 30
0.0
 10
199.5592087881117
 20
-488.2070871978615
 30
0.0
 10
200.4807638636329
 20
-489.6620519428752
 30
0.0
 10
201.0185042632735
 20
-490.5047728080717
 30
0.0
 10
201.0822139127231
 20
-490.6041994400502
 30
0.0
 10
201.1142104436348
 20
-490.6541339057242
 30
0.0
  0
LINE
  5
9A
330
1F
100
AcDbEntity
  8
0
  6
Continuous
 62
     7
370
    25
100
AcDbLine
 10
201.1142104436
 20
-705.6541339057
 30
0.0
 11
-48.8857895564
 21
-705.6541339057
 31
0.0
  0
LINE
  5
9B
330
1F
100
AcDbEntity
  8
0
  6
Continuous
 62
     7
370
    25
100
AcDbLine
 10
201.1142104436
 20
-115.6541339057
 30
0.0
 11
-48.8857895564
 21
-115.6541339057
 31
0.0
  0
LINE
  5
9C
330
1F
100
AcDbEntity
  8
0
  6
Continuous
 62
     7
370
    25
100
AcDbLine
 10
343.1142104436
 20
-330.6541339057
 30
0.0
 11
343.1142104436
 21
-490.6541339057
 31
0.0
  0
LINE
  5
9D
330
1F
100
AcDbEntity
  8
0
  6
Continuous
 62
     7
370
    25
100
AcDbLine
 10
201.1142104436
 20
717.235820248
 30
0.0
 11
201.1142104436
 21
932.235820248
 31
0.0
  0
LINE
  5
9E
330
1F
100
AcDbEntity
  8
0
  6
Continuous
 62
     7
370
    25
100
AcDbLine
 10
201.1142104436
 20
342.235820248
 30
0.0
 11
201.1142104436
 21
557.2804780981
 31
0.0
  0
LINE
  5
9F
330
1F
100
AcDbEntity
  8
0
  6
Continuous
 62
     7
370
    25
100
AcDbLine
 10
-48.8857895564
 20
932.235820248
 30
0.0
 11
-48.8857895564
 21
342.235820248
 31
0.0
  0
LINE
  5
A0
330
1F
100
AcDbEntity
  8
0
  6
Continuous
 62
     7
370
    25
100
AcDbLine
 10
201.085643228
 20
557.235820248
 30
0.0
 11
343.1142104436
 21
557.235820248
 31
0.0
  0
LINE
  5
A1
330
1F
100
AcDbEntity
  8
0
  6
Continuous
 62
     7
370
    25
100
AcDbLine
 10
343.1142104436
 20
717.235820248
 30
0.0
 11
201.1142104436
 21
717.235820248
 31
0.0
  0
SPLINE
  5
A2
330
1F
100
AcDbEntity
  8
0
  6
Continuous
 62
     7
370
    25
100
AcDbSpline
210
0.0
220
0.0
230
1.0
 70
     8
 71
     3
 72
    49
 73
    45
 74
     0
 42
0.000000001
 43
0.00000001
 40
0.0
 40
0.0
 40
0.0
 40
0.0
 40
0.0229789062315732
 40
0.0461383640719337
 40
0.069855422343444
 40
0.0937577584127779
 40
0.1167331875539043
 40
0.1398565349897194
 40
0.1634137801786615
 40
0.1871077747212156
 40
0.2120203169478185
 40
0.2370729273957481
 40
0.2625433795204477
 40
0.2881516316364406
 40
0.3164824177331269
 40
0.34501178128562
 40
0.3742209069740712
 40
0.4037011171114117
 40
0.4244034979998988
 40
0.4452316863978887
 40
0.4664882413722616
 40
0.4879076505396351
 40
0.508614991621825
 40
0.5294816018763236
 40
0.5508362545136103
 40
0.5723503917053756
 40
0.5925736169777704
 40
0.6129079343765474
 40
0.6335561040468498
 40
0.6542993820438521
 40
0.6784517816188277
 40
0.7027313138604131
 40
0.7273876782576026
 40
0.7521686130073328
 40
0.7805573071195706
 40
0.8091463979416381
 40
0.8384100036291349
 40
0.867931338152153
 40
0.8907203241598741
 40
0.9136535820829584
 40
0.937067174397083
 40
0.960658629965656
 40
0.9834519288124487
 40
1.0
 40
1.0
 40
1.0
 40
1.0
 10
201.1142104436348
 20
717.2358202480214
 30
0.0
 10
201.0867895712992
 20
717.1930101591893
 30
0.0
 10
201.0317323732653
 20
717.107053610841
 30
0.0
 10
200.5849324740388
 20
716.4072850729976
 30
0.0
 10
199.869447586769
 20
715.278916030011
 30
0.0
 10
198.8802514219112
 20
713.7024526804543
 30
0.0
 10
197.6604096554266
 20
711.7302808618554
 30
0.0
 10
196.2360467211958
 20
709.3858258002805
 30
0.0
 10
194.6106892061402
 20
706.6497430353068
 30
0.0
 10
192.7826500641361
 20
703.4859189551867
 30
0.0
 10
190.782500864988
 20
699.9033509673927
 30
0.0
 10
188.6331240183189
 20
695.8854975041323
 30
0.0
 10
186.4034374085215
 20
691.4945327077879
 30
0.0
 10
184.0617367393673
 20
686.5784067005977
 30
0.0
 10
181.6676035359003
 20
681.1205314286957
 30
0.0
 10
179.2837443593097
 20
675.0553139568558
 30
0.0
 10
177.0688103730997
 20
668.5490197337538
 30
0.0
 10
175.3233297203177
 20
662.3168173645771
 30
0.0
 10
174.0382694275393
 20
656.5380525774486
 30
0.0
 10
173.1374960709503
 20
651.2988157871646
 30
0.0
 10
172.4990835619936
 20
645.896207708785
 30
0.0
 10
172.1626073005432
 20
640.4358708165043
 30
0.0
 10
172.1369532047731
 20
634.9845534405745
 30
0.0
 10
172.4166823129288
 20
629.5562247568971
 30
0.0
 10
173.0026873554726
 20
624.1181229021051
 30
0.0
 10
173.863985122432
 20
618.8333525741274
 30
0.0
 10
174.9504000449254
 20
613.7589255068622
 30
0.0
 10
176.2195500294372
 20
608.8956015390734
 30
0.0
 10
177.6677281818342
 20
604.1501377183956
 30
0.0
 10
179.3497337373091
 20
599.2949495339137
 30
0.0
 10
181.250381928146
 20
594.3917875730788
 30
0.0
 10
183.3515650731161
 20
589.4759994173055
 30
0.0
 10
185.5185820172239
 20
584.7987864640179
 30
0.0
 10
187.8096880377445
 20
580.1739170346372
 30
0.0
 10
190.1698173829327
 20
575.685857450312
 30
0.0
 10
192.5434890391651
 20
571.3986363677233
 30
0.0
 10
194.7669458123491
 20
567.5485515852873
 30
0.0
 10
196.612270266417
 20
564.4600797333972
 30
0.0
 10
198.078936773812
 20
562.0612549754463
 30
0.0
 10
199.2107268518973
 20
560.2404345058753
 30
0.0
 10
200.113320970085
 20
558.8070783535535
 30
0.0
 10
200.7348232527847
 20
557.8291989456284
 30
0.0
 10
201.076064078265
 20
557.2953943158509
 30
0.0
 10
201.082803776514
 20
557.2848945787292
 30
0.0
 10
201.0856386804919
 20
557.280478098134
 30
0.0
  0
LINE
  5
A3
330
1F
100
AcDbEntity
  8
0
  6
Continuous
 62
     7
370
    25
100
AcDbLine
 10
-48.8857895564
 20
932.235820248
 30
0.0
 11
201.1142104436
 21
932.235820248
 31
0.0
  0
LINE
  5
A4
330
1F
100
AcDbEntity
  8
0
  6
Continuous
 62
     7
370
    25
100
AcDbLine
 10
-48.8857895564
 20
342.235820248
 30
0.0
 11
201.1142104436
 21
342.235820248
 31
0.0
  0
LINE
  5
A5
330
1F
100
AcDbEntity
  8
0
  6
Continuous
 62
     7
370
    25
100
AcDbLine
 10
343.1142104436
 20
717.235820248
 30
0.0
 11
343.1142104436
 21
557.235820248
 31
0.0
  0
LINE
  5
A6
330
1F
100
AcDbEntity
  8
0
  6
Continuous
 62
     7
370
    25
100
AcDbLine
 10
457.1821204575
 20
-22.4174196598
 30
0.0
 11
1047.1821204575
 21
-22.4174196598
 31
0.0
  0
LINE
  5
A7
330
1F
100
AcDbEntity
  8
0
  6
Continuous
 62
     7
370
    25
100
AcDbLine
 10
1047.1821204575
 20
227.5825803402
 30
0.0
 11
457.1821204575
 21
227.5825803402
 31
0.0
  0
LINE
  5
A8
330
1F
100
AcDbEntity
  8
0
  6
Continuous
 62
     7
370
    25
100
AcDbLine
 10
1047.1821204575
 20
227.5825803402
 30
0.0
 11
1047.1821204575
 21
-22.4174196598
 31
0.0
  0
LINE
  5
A9
330
1F
100
AcDbEntity
  8
0
  6
Continuous
 62
     7
370
    25
100
AcDbLine
 10
457.1821204575
 20
227.5825803402
 30
0.0
 11
457.1821204575
 21
-22.4174196598
 31
0.0
  0
LINE
  5
AA
330
1F
100
AcDbEntity
  8
0
  6
Continuous
 62
     7
370
    25
100
AcDbLine
 10
-172.1394527087
 20
227.5825803402
 30
0.0
 11
-762.1394527087
 21
227.5825803402
 31
0.0
  0
LINE
  5
AB
330
1F
100
AcDbEntity
  8
0
  6
Continuous
 62
     7
370
    25
100
AcDbLine
 10
-762.1394527087
 20
-22.4174196598
 30
0.0
 11
-172.1394527087
 21
-22.4174196598
 31
0.0
  0
CIRCLE
  5
AC
330
1F
100
AcDbEntity
  8
0
  6
Continuous
 62
     7
370
    25
100
AcDbCircle
 10
-467.1394527087
 20
102.5825803402
 30
0.0
 40
65.39999999999998
  0
CIRCLE
  5
AD
330
1F
100
AcDbEntity
  8
0
  6
Continuous
 62
     7
370
    25
100
AcDbCircle
 10
-467.1394527087
 20
102.5825803402
 30
0.0
 40
80.0
  0
LINE
  5
AE
330
1F
100
AcDbEntity
  8
0
  6
Continuous
 62
     7
370
    25
100
AcDbLine
 10
-762.1394527087
 20
102.5825803402
 30
0.0
 11
-762.1394527087
 21
227.5825803402
 31
0.0
  0
LINE
  5
AF
330
1F
100
AcDbEntity
  8
0
  6
Continuous
 62
     7
370
    25
100
AcDbLine
 10
-762.1394527087
 20
-22.4174196598
 30
0.0
 11
-762.1394527087
 21
102.5825803402
 31
0.0
  0
LINE
  5
B0
330
1F
100
AcDbEntity
  8
0
  6
Continuous
 62
     7
370
    25
100
AcDbLine
 10
-172.1394527087
 20
102.5825803402
 30
0.0
 11
-172.1394527087
 21
227.5825803402
 31
0.0
  0
LINE
  5
B1
330
1F
100
AcDbEntity
  8
0
  6
Continuous
 62
     7
370
    25
100
AcDbLine
 10
-172.1394527087
 20
-22.4174196598
 30
0.0
 11
-172.1394527087
 21
102.5825803402
 31
0.0
  0
INSERT
  5
BD
330
1F
100
AcDbEntity
  8
FORMAT
100
AcDbBlockReference
  2
SW_CENTERMARKSYMBOL_1
 10
-467.1394527087
 20
102.5825803402
 30
0.0
  0
LINE
  5
BE
330
1F
100
AcDbEntity
  8
0
  6
Continuous
 62
     7
370
    25
100
AcDbLine
 10
1069.522213717
 20
-464.0871928192
 30
0.0
 11
1003.4474536409
 21
-425.9430457482
 31
0.0
  0
LINE
  5
BF
330
1F
100
AcDbEntity
  8
0
  6
Continuous
 62
     7
370
    25
100
AcDbLine
 10
843.4344498058
 20
-333.5695048603
 30
0.0
 11
652.329212817
 21
-223.2467998315
 31
0.0
  0
LINE
  5
C0
330
1F
100
AcDbEntity
  8
0
  6
Continuous
 62
     7
370
    25
100
AcDbLine
 10
527.3393712375
 20
-439.7590154266
 30
0.0
 11
944.5323721375
 21
-680.5994084143
 31
0.0
  0
LINE
  5
C1
330
1F
100
AcDbEntity
  8
0
  6
Continuous
 62
     7
370
    25
100
AcDbLine
 10
917.2448334076
 20
-475.7067591584
 30
0.0
 11
1027.2250523595
 21
-412.216530185
 31
0.0
  0
LINE
  5
C2
330
1F
100
AcDbEntity
  8
0
  6
Continuous
 62
     7
370
    25
100
AcDbLine
 10
947.2315537486
 20
-273.6487122041
 30
0.0
 11
837.2510895336
 21
-337.1390827649
 31
0.0
  0
SPLINE
  5
C3
330
1F
100
AcDbEntity
  8
0
  6
Continuous
 62
     7
370
    25
100
AcDbSpline
210
0.0
220
0.0
230
1.0
 70
     8
 71
     3
 72
    39
 73
    35
 74
     0
 42
0.000000001
 43
0.00000001
 40
0.0
 40
0.0
 40
0.0
 40
0.0
 40
0.0306048703633402
 40
0.0618206088124836
 40
0.0930378793194844
 40
0.1248726363532125
 40
0.1554728756909812
 40
0.1865577908267163
 40
0.2176451162245594
 40
0.2492023898413599
 40
0.282382608150394
 40
0.3160270236516811
 40
0.3496725976714872
 40
0.3837794097339706
 40
0.4215122777409456
 40
0.4595096247109662
 40
0.4984123251316363
 40
0.5376760742607246
 40
0.5652489133210137
 40
0.5932758525796205
 40
0.6212999975247074
 40
0.6498278236196716
 40
0.6774072690033305
 40
0.7055227444448987
 40
0.7336400647968452
 40
0.7622940561181725
 40
0.7892287231363901
 40
0.8165190985381976
 40
0.8438119113608297
 40
0.8714392199720942
 40
0.9036070285921616
 40
0.9361946069188628
 40
0.968783152996323
 40
1.0
 40
1.0
 40
1.0
 40
1.0
 10
830.2505976306327
 20
-368.2412726610602
 30
0.0
 10
830.2614791095243
 20
-369.8921503524687
 30
0.0
 10
830.2834592598036
 20
-373.2268569774664
 30
0.0
 10
830.4632185063949
 20
-378.5903644107945
 30
0.0
 10
830.7557660877543
 20
-384.2230990932584
 30
0.0
 10
831.1694281297478
 20
-389.9997181351139
 30
0.0
 10
831.7030259192959
 20
-395.8892925912079
 30
0.0
 10
832.3542442384903
 20
-401.809918787319
 30
0.0
 10
833.1402204234988
 20
-407.8284189330009
 30
0.0
 10
834.0819416518142
 20
-413.9808334345112
 30
0.0
 10
835.2040656349332
 20
-420.2586878721419
 30
0.0
 10
836.5259263068551
 20
-426.5903138767348
 30
0.0
 10
838.0551462507082
 20
-432.8630215029104
 30
0.0
 10
839.8707380762582
 20
-439.2283946335947
 30
0.0
 10
842.0371353516318
 20
-445.6380677902737
 30
0.0
 10
844.640255291919
 20
-452.0316212298894
 30
0.0
 10
847.6746735794072
 20
-458.141350716739
 30
0.0
 10
850.8473743292533
 20
-463.290013348286
 30
0.0
 10
854.0342332015783
 20
-467.5262735653441
 30
0.0
 10
857.1043513646251
 20
-470.9442171009166
 30
0.0
 10
860.4734535791054
 20
-474.044031922658
 30
0.0
 10
864.0845979784671
 20
-476.7311727772436
 30
0.0
 10
867.9356072141165
 20
-479.0011654050986
 30
0.0
 10
871.9739725256517
 20
-480.8244894983081
 30
0.0
 10
876.2334793653546
 20
-482.2230229448591
 30
0.0
 10
880.562882866617
 20
-483.1541907799287
 30
0.0
 10
884.9301269210117
 20
-483.6564807425693
 30
0.0
 10
889.2666639728905
 20
-483.762774349834
 30
0.0
 10
893.6461252772908
 20
-483.4973181947858
 30
0.0
 10
898.2573781314491
 20
-482.8382476596782
 30
0.0
 10
903.0825830087146
 20
-481.7303244724576
 30
0.0
 10
908.0395309712551
 20
-480.1149577592752
 30
0.0
 10
912.8057582010454
 20
-478.134443893635
 30
0.0
 10
915.782706632588
 20
-476.4974257821146
 30
0.0
 10
917.239181379278
 20
-475.6965131717245
 30
0.0
  0
SPLINE
  5
C4
330
1F
100
AcDbEntity
  8
0
  6
Continuous
 62
     7
370
    25
100
AcDbSpline
210
0.0
220
0.0
230
1.0
 70
     8
 71
     3
 72
    17
 73
    13
 74
     0
 42
0.000000001
 43
0.00000001
 40
0.0
 40
0.0
 40
0.0
 40
0.0
 40
0.0078615120544944
 40
0.117930038479509
 40
0.2302225670528183
 40
0.3433385380415718
 40
0.4551966780190194
 40
0.5680281259989691
 40
0.6842330158592381
 40
0.8017419040044375
 40
0.9008725574983658
 40
1.0
 40
1.0
 40
1.0
 40
1.0
 10
837.2599723246601
 20
-337.1552272088895
 30
0.0
 10
837.2180349842487
 20
-337.1724360458256
 30
0.0
 10
836.5889356285303
 20
-337.4305847057776
 30
0.0
 10
835.5887692811252
 20
-338.4093203955853
 30
0.0
 10
834.2505693613404
 20
-340.1713853340974
 30
0.0
 10
833.1395095887215
 20
-342.5721191128775
 30
0.0
 10
832.2117764207349
 20
-345.5494700342852
 30
0.0
 10
831.461924833059
 20
-349.160149288964
 30
0.0
 10
830.8820875631397
 20
-353.4489812688555
 30
0.0
 10
830.5041449621206
 20
-358.1688946059228
 30
0.0
 10
830.288448484552
 20
-363.1103028621251
 30
0.0
 10
830.2632144457087
 20
-366.5309678618026
 30
0.0
 10
830.2505976306327
 20
-368.2412726610602
 30
0.0
  0
LWPOLYLINE
  5
C5
330
1F
100
AcDbEntity
  8
0
  6
Continuous
 62
     7
370
    25
100
AcDbPolyline
 90
      119
 70
   128
 43
0.0
 10
678.2226396755
 20
-280.4774006401
 10
678.0973664883
 20
-275.1174595798
 10
677.721902027
 20
-269.917349198
 10
677.0973105865
 20
-264.8918097727
 10
676.2253626391
 20
-260.0550867413
 10
675.1085298159
 20
-255.4208903207
 10
673.749977901
 20
-251.0023566443
 10
672.1535578573
 20
-246.8120105257
 10
670.323794911
 20
-242.8617299563
 10
668.2658757238
 20
-239.1627124356
 10
665.9856336913
 20
-235.7254432306
 10
663.4895324073
 20
-232.5596656544
 10
660.784647342
 20
-229.6743534473
 10
657.8786457861
 20
-227.0776853404
 10
654.7797651167
 20
-224.7770218715
 10
651.4967894477
 20
-222.7788845211
 10
648.0390247304
 20
-221.0889372268
 10
644.4162723745
 20
-219.7119703276
 10
640.6388014651
 20
-218.6518869859
 10
636.717319654
 20
-217.9116921231
 10
632.6629428075
 20
-217.493483902
 10
628.4871634971
 20
-217.3984477791
 10
624.201818423
 20
-217.6268531447
 10
619.8190548615
 20
-218.1780525589
 10
615.3512962319
 20
-219.0504835872
 10
610.8112068816
 20
-220.2416732291
 10
606.2116561871
 20
-221.7482449279
 10
601.5656820746
 20
-223.5659281427
 10
596.8864540623
 20
-225.6895704527
 10
592.1872359306
 20
-228.1131521633
 10
587.4813481238
 20
-230.8298033686
 10
582.7821299921
 20
-233.8318234258
 10
578.1029019798
 20
-237.1107027827
 10
573.4569278673
 20
-240.6571470997
 10
568.8573771728
 20
-244.4611035949
 10
564.3172878225
 20
-248.5117895405
 10
559.8495291929
 20
-252.797722827
 10
555.4667656314
 20
-257.3067545108
 10
551.1814205573
 20
-262.0261032518
 10
547.0056412469
 20
-266.9423915433
 10
542.9512644004
 20
-272.0416836318
 10
539.0297825893
 20
-277.30952502
 10
535.2523116799
 20
-282.7309834392
 10
531.629559324
 20
-288.2906911763
 10
528.1717946067
 20
-293.9728886359
 10
524.8888189377
 20
-299.7614690118
 10
521.7899382683
 20
-305.640023944
 10
518.8839367124
 20
-311.59189003
 10
516.1790516472
 20
-317.6001960586
 10
513.6829503631
 20
-323.6479108336
 10
511.4027083306
 20
-329.7178914505
 10
509.3447891435
 20
-335.7929318897
 10
507.5150261971
 20
-341.855811789
 10
505.9186061534
 20
-347.8893452566
 10
504.5600542385
 20
-353.8764295865
 10
503.4432214153
 20
-359.8000937376
 10
502.5712734679
 20
-365.6435464402
 10
501.9466820274
 20
-371.3902237929
 10
501.5712175661
 20
-377.0238362143
 10
501.4459443789
 20
-382.528414618
 10
501.5712175661
 20
-387.8883556783
 10
501.9466820274
 20
-393.0884660601
 10
502.5712734679
 20
-398.1140054854
 10
503.4432214153
 20
-402.9507285168
 10
504.5600542385
 20
-407.5849249374
 10
505.9186061534
 20
-412.0034586138
 10
507.5150261971
 20
-416.1938047324
 10
509.3447891435
 20
-420.1440853018
 10
511.4027083306
 20
-423.8431028225
 10
513.6829503631
 20
-427.2803720274
 10
516.1790516472
 20
-430.4461496037
 10
518.8839367124
 20
-433.3314618108
 10
521.7899382683
 20
-435.9281299177
 10
524.8888189377
 20
-438.2287933866
 10
528.1717946067
 20
-440.2269307369
 10
531.629559324
 20
-441.9168780313
 10
535.2523116799
 20
-443.2938449304
 10
539.0297825893
 20
-444.3539282721
 10
542.9512644004
 20
-445.0941231349
 10
547.0056412469
 20
-445.5123313561
 10
551.1814205573
 20
-445.607367479
 10
555.4667656314
 20
-445.3789621134
 10
559.8495291929
 20
-444.8277626991
 10
564.3172878225
 20
-443.9553316708
 10
568.8573771728
 20
-442.764142029
 10
573.4569278673
 20
-441.2575703302
 10
578.1029019798
 20
-439.4398871154
 10
582.7821299921
 20
-437.3162448053
 10
587.4813481238
 20
-434.8926630948
 10
592.1872359306
 20
-432.1760118895
 10
596.8864540623
 20
-429.1739918323
 10
601.5656820746
 20
-425.8951124754
 10
606.2116561871
 20
-422.3486681584
 10
610.8112068816
 20
-418.5447116632
 10
615.3512962319
 20
-414.4940257176
 10
619.8190548615
 20
-410.2080924311
 10
624.201818423
 20
-405.6990607473
 10
628.4871634971
 20
-400.9797120062
 10
632.6629428075
 20
-396.0634237148
 10
636.717319654
 20
-390.9641316263
 10
640.6388014651
 20
-385.6962902381
 10
644.4162723745
 20
-380.2748318189
 10
648.0390247304
 20
-374.7151240817
 10
651.4967894477
 20
-369.0329266222
 10
654.7797651167
 20
-363.2443462463
 10
657.8786457861
 20
-357.3657913141
 10
660.784647342
 20
-351.4139252281
 10
663.4895324073
 20
-345.4056191995
 10
665.9856336913
 20
-339.3579044245
 10
668.2658757238
 20
-333.2879238076
 10
670.323794911
 20
-327.2128833684
 10
672.1535578573
 20
-321.1500034691
 10
673.749977901
 20
-315.1164700015
 10
675.1085298159
 20
-309.1293856716
 10
676.2253626391
 20
-303.2057215205
 10
677.0973105865
 20
-297.3622688179
 10
677.721902027
 20
-291.6155914652
 10
678.0973664883
 20
-285.9819790438
 10
678.2226396755
 20
-280.4774006401
  0
LWPOLYLINE
  5
C6
330
1F
100
AcDbEntity
  8
0
  6
Continuous
 62
     7
370
    25
100
AcDbPolyline
 90
       16
 70
   128
 43
0.0
 10
1095.4156405756
 20
-521.3177936278
 10
1095.2903673883
 20
-515.9578525675
 10
1094.9149029271
 20
-510.7577421857
 10
1094.2903114866
 20
-505.7322027604
 10
1093.4183635391
 20
-500.895479729
 10
1092.301530716
 20
-496.2612833084
 10
1090.9429788011
 20
-491.842749632
 10
1089.3465587574
 20
-487.6524035134
 10
1087.516795811
 20
-483.702122944
 10
1085.4588766238
 20
-480.0031054233
 10
1083.1786345913
 20
-476.5658362183
 10
1080.6825333073
 20
-473.4000586421
 10
1077.9776482421
 20
-470.514746435
 10
1075.0716466862
 20
-467.9180783281
 10
1071.9727660168
 20
-465.6174148592
 10
1069.522213717
 20
-464.0871928192
  0
LWPOLYLINE
  5
C7
330
1F
100
AcDbEntity
  8
0
  6
Continuous
 62
     7
370
    25
100
AcDbPolyline
 90
       46
 70
   128
 43
0.0
 10
944.5323721375
 20
-680.5994084143
 10
945.3647955068
 20
-681.0673237246
 10
948.8225602241
 20
-682.757271019
 10
952.44531258
 20
-684.1342379181
 10
956.2227834894
 20
-685.1943212598
 10
960.1442653004
 20
-685.9345161226
 10
964.198642147
 20
-686.3527243438
 10
968.3744214574
 20
-686.4477604667
 10
972.6597665315
 20
-686.2193551011
 10
977.042530093
 20
-685.6681556868
 10
981.5102887225
 20
-684.7957246585
 10
986.0503780728
 20
-683.6045350167
 10
990.6499287673
 20
-682.0979633179
 10
995.2959028799
 20
-680.2802801031
 10
999.9751308921
 20
-678.156637793
 10
1004.6743490238
 20
-675.7330560825
 10
1009.3802368307
 20
-673.0164048772
 10
1014.0794549624
 20
-670.01438482
 10
1018.7586829746
 20
-666.7355054631
 10
1023.4046570872
 20
-663.1890611461
 10
1028.0042077817
 20
-659.3851046509
 10
1032.544297132
 20
-655.3344187053
 10
1037.0120557615
 20
-651.0484854188
 10
1041.3948193231
 20
-646.539453735
 10
1045.6801643971
 20
-641.8201049939
 10
1049.8559437075
 20
-636.9038167025
 10
1053.9103205541
 20
-631.804524614
 10
1057.8318023652
 20
-626.5366832258
 10
1061.6092732745
 20
-621.1152248066
 10
1065.2320256304
 20
-615.5555170694
 10
1068.6897903478
 20
-609.8733196099
 10
1071.9727660168
 20
-604.084739234
 10
1075.0716466862
 20
-598.2061843018
 10
1077.9776482421
 20
-592.2543182158
 10
1080.6825333073
 20
-586.2460121872
 10
1083.1786345913
 20
-580.1982974122
 10
1085.4588766238
 20
-574.1283167953
 10
1087.516795811
 20
-568.0532763561
 10
1089.3465587574
 20
-561.9903964568
 10
1090.9429788011
 20
-555.9568629892
 10
1092.301530716
 20
-549.9697786593
 10
1093.4183635391
 20
-544.0461145082
 10
1094.2903114866
 20
-538.2026618056
 10
1094.9149029271
 20
-532.4559844529
 10
1095.2903673883
 20
-526.8223720315
 10
1095.4156405756
 20
-521.3177936278
  0
LWPOLYLINE
  5
C8
330
1F
100
AcDbEntity
  8
0
  6
Continuous
 62
     7
370
    25
100
AcDbPolyline
 90
      108
 70
   128
 43
0.0
 10
662.1713157426
 20
-289.7436327093
 10
662.0466353895
 20
-284.9133078089
 10
661.6730241292
 20
-280.2435869107
 10
661.0517698772
 20
-275.7505675099
 10
660.1850142254
 20
-271.4497379753
 10
659.0757450603
 20
-267.3559241571
 10
657.7277862625
 20
-263.4832382798
 10
656.1457845251
 20
-259.8450302938
 10
654.3351933358
 20
-256.4538418557
 10
652.3022541777
 20
-253.3213630946
 10
650.053975013
 20
-250.4583923137
 10
647.5981061259
 20
-247.8747987664
 10
644.9431134052
 20
-245.5794886348
 10
642.0981491607
 20
-243.5803743286
 10
639.0730205737
 20
-241.8843472088
 10
635.878155889
 20
-240.4972538323
 10
632.524568467
 20
-239.4238757974
 10
629.0238188184
 20
-238.6679132603
 10
625.3879747524
 20
-238.2319721807
 10
621.6295697766
 20
-238.1175553377
 10
617.7615598917
 20
-238.3250571499
 10
613.7972789291
 20
-238.8537623156
 10
609.7503925863
 20
-239.7018482785
 10
605.6348513191
 20
-240.8663915107
 10
601.4648422507
 20
-242.3433775903
 10
597.2547402663
 20
-244.1277150403
 10
593.0190584596
 20
-246.21325288
 10
588.7723981033
 20
-248.5928018283
 10
584.5293983153
 20
-251.2581590871
 10
580.3046855949
 20
-254.2001366178
 10
576.112823402
 20
-257.4085928143
 10
571.968261954
 20
-260.8724674634
 10
567.8852884128
 20
-264.5798198717
 10
563.8779776341
 20
-268.5178700274
 10
559.9601436483
 20
-272.6730426558
 10
556.1452920407
 20
-277.031014016
 10
552.4465733951
 20
-281.576761278
 10
548.8767379609
 20
-286.2946143092
 10
545.4480917004
 20
-291.1683096929
 10
542.1724538676
 20
-296.1810467915
 10
539.0611162646
 20
-301.3155456617
 10
536.1248043167
 20
-306.5541066223
 10
533.3736400995
 20
-311.8786712683
 10
530.8171074459
 20
-317.2708847225
 10
528.4640192537
 20
-322.712158908
 10
526.3224871052
 20
-328.1837366254
 10
524.3998933056
 20
-333.6667562129
 10
522.7028654338
 20
-339.1423165661
 10
521.2372534966
 20
-344.591542294
 10
520.0081097618
 20
-349.9956487868
 10
519.0196713426
 20
-355.3360069699
 10
518.2753455909
 20
-360.5942075222
 10
517.7776983519
 20
-365.7521243372
 10
517.5284451186
 20
-370.791977007
 10
517.5284451186
 20
-375.6963921156
 10
517.7776983519
 20
-380.4484631279
 10
518.2753455909
 20
-385.0318086708
 10
519.0196713426
 20
-389.4306290027
 10
520.0081097618
 20
-393.6297604786
 10
521.2372534966
 20
-397.6147278225
 10
522.7028654338
 20
-401.3717940263
 10
524.3998933056
 20
-404.8880077045
 10
526.3224871052
 20
-408.1512477403
 10
528.4640192537
 20
-411.1502650691
 10
530.8171074459
 20
-413.8747214569
 10
533.3736400995
 20
-416.3152251382
 10
536.1248043167
 20
-418.4633631912
 10
539.0611162646
 20
-420.311730539
 10
542.1724538676
 20
-421.8539554765
 10
545.4480917004
 20
-423.0847216348
 10
548.8767379609
 20
-423.999786308
 10
552.4465733951
 20
-424.5959950786
 10
556.1452920407
 20
-424.8712926914
 10
559.9601436483
 20
-424.8247301386
 10
563.8779776341
 20
-424.456467931
 10
567.8852884128
 20
-423.7677755445
 10
571.968261954
 20
-422.7610270447
 10
576.112823402
 20
-421.439692902
 10
580.3046855949
 20
-419.8083280291
 10
584.5293983153
 20
-417.8725560786
 10
588.7723981033
 20
-415.6390500574
 10
593.0190584596
 20
-413.1155093235
 10
597.2547402663
 20
-410.3106330445
 10
601.4648422507
 20
-407.2340902102
 10
605.6348513191
 20
-403.8964863008
 10
609.7503925863
 20
-400.3093267287
 10
613.7972789291
 20
-396.4849771758
 10
617.7615598917
 20
-392.4366209675
 10
621.6295697766
 20
-388.1782136262
 10
625.3879747524
 20
-383.7244347641
 10
629.0238188184
 20
-379.0906374797
 10
632.524568467
 20
-374.2927954322
 10
635.878155889
 20
-369.347447777
 10
639.0730205737
 20
-364.271642152
 10
642.0981491607
 20
-359.0828759107
 10
644.9431134052
 20
-353.7990358052
 10
647.5981061259
 20
-348.4383363269
 10
650.053975013
 20
-343.0192569176
 10
652.3022541777
 20
-337.5604782666
 10
654.3351933358
 20
-332.0808179146
 10
656.1457845251
 20
-326.5991653862
 10
657.7277862625
 20
-321.1344170732
 10
659.0757450603
 20
-315.705411095
 10
660.1850142254
 20
-310.3308623601
 10
661.0517698772
 20
-305.0292980512
 10
661.6730241292
 20
-299.8189937588
 10
662.0466353895
 20
-294.7179104813
 10
662.1713157426
 20
-289.7436327093
  0
LWPOLYLINE
  5
C9
330
1F
100
AcDbEntity
  8
0
  6
Continuous
 62
     7
370
    25
100
AcDbPolyline
 90
       86
 70
   128
 43
0.0
 10
1033.4730865436
 20
-369.6291664512
 10
1033.3468000581
 20
-365.6124071954
 10
1032.9686303346
 20
-361.4717788132
 10
1032.3406428048
 20
-357.229895981
 10
1031.466267319
 20
-352.9099263917
 10
1030.3502794129
 20
-348.5354642213
 10
1028.9987742254
 20
-344.1304012652
 10
1027.4191332092
 20
-339.7187964497
 10
1025.6199838156
 20
-335.3247444305
 10
1023.6111523749
 20
-330.972243996
 10
1021.4036104278
 20
-326.6850669943
 10
1019.0094148028
 20
-322.4866284994
 10
1016.4416417662
 20
-318.3998589265
 10
1013.714315604
 20
-314.4470787938
 10
1010.8423320257
 20
-310.6498768158
 10
1007.8413768099
 20
-307.0289919928
 10
1004.7278401333
 20
-303.6042003422
 10
1001.5187270535
 20
-300.3942068882
 10
998.2315646333
 20
-297.4165435022
 10
994.884306214
 20
-294.6874731487
 10
991.4952333604
 20
-292.2219010639
 10
988.082856013
 20
-290.0332933474
 10
984.6658113937
 20
-288.1336034156
 10
981.2627622153
 20
-286.5332067161
 10
977.8922947522
 20
-285.2408440609
 10
974.572817329
 20
-284.2635738864
 10
971.3224597803
 20
-283.6067337036
 10
968.1589744319
 20
-283.2739109458
 10
965.0996391437
 20
-283.2669233754
 10
962.1611629442
 20
-283.5858091561
 10
959.3595947714
 20
-284.2288266444
 10
956.7102358191
 20
-285.1924639016
 10
954.2275559673
 20
-286.4714578754
 10
951.9251147524
 20
-288.0588231441
 10
949.8154873098
 20
-289.9458900691
 10
947.9101956931
 20
-292.1223521452
 10
946.2196459444
 20
-294.5763222913
 10
944.7530712602
 20
-297.2943977734
 10
943.5184815629
 20
-300.2617334058
 10
942.5226197532
 20
-303.4621226303
 10
941.7709248831
 20
-306.8780860306
 10
941.2675024492
 20
-310.4909667994
 10
941.0151019703
 20
-314.2810326346
 10
941.0151019703
 20
-318.2275835109
 10
941.2675024492
 20
-322.3090647361
 10
941.7709248831
 20
-326.503184675
 10
942.5226197532
 20
-330.7870364989
 10
943.5184815629
 20
-335.1372232947
 10
944.7530712602
 20
-339.5299858506
 10
946.2196459444
 20
-343.9413324207
 10
947.9101956931
 20
-348.34716976
 10
949.8154873098
 20
-352.7234347126
 10
951.9251147524
 20
-357.0462256369
 10
954.2275559673
 20
-361.291932948
 10
956.7102358191
 20
-365.4373680648
 10
959.3595947714
 20
-369.4598900582
 10
962.1611629442
 20
-373.3375293079
 10
965.0996391437
 20
-377.0491074931
 10
968.1589744319
 20
-380.5743532607
 10
971.3224597803
 20
-383.8940129409
 10
974.572817329
 20
-386.9899557036
 10
977.8922947522
 20
-389.8452725831
 10
981.2627622153
 20
-392.4443688286
 10
984.6658113937
 20
-394.7730490779
 10
988.082856013
 20
-396.8185948868
 10
991.4952333604
 20
-398.5698341935
 10
994.884306214
 20
-400.0172023363
 10
998.2315646333
 20
-401.1527942921
 10
1001.5187270535
 20
-401.9704078516
 10
1004.7278401333
 20
-402.4655774931
 10
1007.8413768099
 20
-402.6355987715
 10
1010.8423320257
 20
-402.4795430897
 10
1013.714315604
 20
-401.9982627697
 10
1016.4416417662
 20
-401.1943863977
 10
1019.0094148028
 20
-400.0723044677
 10
1021.4036104278
 20
-398.6381454021
 10
1023.6111523749
 20
-396.8997420803
 10
1025.6199838156
 20
-394.8665890585
 10
1027.4191332092
 20
-392.5497907135
 10
1028.9987742254
 20
-389.9620005944
 10
1030.3502794129
 20
-387.1173523134
 10
1031.466267319
 20
-384.0313823531
 10
1032.3406428048
 20
-380.7209452113
 10
1032.9686303346
 20
-377.2041213475
 10
1033.3468000581
 20
-373.5001184343
 10
1033.4730865436
 20
-369.6291664512
  0
LWPOLYLINE
  5
CA
330
1F
100
AcDbEntity
  8
0
  6
Continuous
 62
     7
370
    25
100
AcDbPolyline
 90
       95
 70
   128
 43
0.0
 10
1043.796845549
 20
-375.5889456675
 10
1043.6705211275
 20
-371.1529072203
 10
1043.2921120585
 20
-366.5908301252
 10
1042.6633084088
 20
-361.9230897258
 10
1041.7869185682
 20
-357.170533284
 10
1040.6668567063
 20
-352.3543868705
 10
1039.3081252914
 20
-347.4961605643
 10
1037.7167927479
 20
-342.6175523835
 10
1035.8999663531
 20
-337.7403513765
 10
1033.8657604948
 20
-332.8863403069
 10
1031.6232604302
 20
-328.0771983665
 10
1029.1824817088
 20
-323.3344043507
 10
1026.5543254411
 20
-318.6791407289
 10
1023.7505296109
 20
-314.1321990384
 10
1020.7836166509
 20
-309.7138870247
 10
1017.6668375147
 20
-305.4439379418
 10
1014.4141124946
 20
-301.3414224188
 10
1011.0399690501
 20
-297.424663286
 10
1007.5594769248
 20
-293.7111537403
 10
1003.9881808416
 20
-290.2174792171
 10
1000.3420310756
 20
-286.9592433147
 10
996.6373122169
 20
-283.9509981056
 10
992.8905704392
 20
-281.2061791433
 10
989.1185396009
 20
-278.7370454555
 10
985.3380665072
 20
-276.5546247927
 10
981.5660356688
 20
-274.6686643753
 10
977.8192938912
 20
-273.0875873604
 10
974.1145750325
 20
-271.8184552217
 10
970.4684252665
 20
-270.8669362115
 10
966.8971291833
 20
-270.2372800446
 10
963.416637058
 20
-269.9322989184
 10
960.0424936135
 20
-269.9533549525
 10
956.7897685934
 20
-270.3003541057
 10
953.6729894572
 20
-270.9717465955
 10
950.7060764972
 20
-271.9645338199
 10
947.902280667
 20
-273.2742817504
 10
945.2741243992
 20
-274.8951407346
 10
942.8333456779
 20
-276.8198716229
 10
940.5908456133
 20
-279.0398781
 10
938.556639755
 20
-281.5452450778
 10
936.7398133602
 20
-284.3247829795
 10
935.1484808166
 20
-287.3660777138
 10
933.7897494018
 20
-290.6555461204
 10
932.6696875399
 20
-294.1784966346
 10
931.7932976993
 20
-297.9191949044
 10
931.1644940496
 20
-301.8609340632
 10
930.7860849806
 20
-305.986109347
 10
930.6597605591
 20
-310.2762967216
 10
930.7860849806
 20
-314.7123351688
 10
931.1644940496
 20
-319.274412264
 10
931.7932976993
 20
-323.9421526633
 10
932.6696875399
 20
-328.6947091051
 10
933.7897494018
 20
-333.5108555186
 10
935.1484808166
 20
-338.3690818248
 10
936.7398133602
 20
-343.2476900056
 10
938.556639755
 20
-348.1248910126
 10
940.5908456133
 20
-352.9789020822
 10
942.8333456779
 20
-357.7880440226
 10
945.2741243993
 20
-362.5308380384
 10
947.902280667
 20
-367.1861016602
 10
950.7060764972
 20
-371.7330433507
 10
953.6729894572
 20
-376.1513553644
 10
956.7897685934
 20
-380.4213044473
 10
960.0424936135
 20
-384.5238199703
 10
963.416637058
 20
-388.4405791032
 10
966.8971291833
 20
-392.1540886488
 10
970.4684252665
 20
-395.647763172
 10
974.1145750325
 20
-398.9059990744
 10
977.8192938912
 20
-401.9142442835
 10
981.5660356689
 20
-404.6590632458
 10
985.3380665072
 20
-407.1281969336
 10
989.1185396009
 20
-409.3106175964
 10
992.8905704392
 20
-411.1965780138
 10
996.6373122169
 20
-412.7776550287
 10
1000.3420310756
 20
-414.0467871674
 10
1003.9881808416
 20
-414.9983061776
 10
1007.5594769248
 20
-415.6279623445
 10
1011.0399690501
 20
-415.9329434707
 10
1014.4141124946
 20
-415.9118874366
 10
1017.6668375147
 20
-415.5648882834
 10
1020.7836166509
 20
-414.8934957936
 10
1023.7505296109
 20
-413.9007085692
 10
1026.5543254411
 20
-412.5909606387
 10
1029.1824817088
 20
-410.9701016545
 10
1031.6232604302
 20
-409.0453707662
 10
1033.8657604948
 20
-406.8253642892
 10
1035.8999663531
 20
-404.3199973113
 10
1037.7167927479
 20
-401.5404594097
 10
1039.3081252914
 20
-398.4991646753
 10
1040.6668567063
 20
-395.2096962688
 10
1041.7869185682
 20
-391.6867457545
 10
1042.6633084088
 20
-387.9460474847
 10
1043.2921120585
 20
-384.0043083259
 10
1043.6705211275
 20
-379.8791330421
 10
1043.796845549
 20
-375.5889456675
  0
ENDSEC
  0
SECTION
  2
OBJECTS
  0
DICTIONARY
  5
C
330
0
100
AcDbDictionary
281
     1
  3
ACAD_GROUP
350
D
  3
ACAD_LAYOUT
350
1A
  3
ACAD_MLINESTYLE
350
17
  3
ACAD_PLOTSETTINGS
350
19
  3
ACAD_PLOTSTYLENAME
350
E
  3
ACAD_SCALELIST
350
47
  0
DICTIONARY
  5
D
102
{ACAD_REACTORS
330
C
102
}
330
C
100
AcDbDictionary
281
     1
  0
DICTIONARY
  5
1A
102
{ACAD_REACTORS
330
C
102
}
330
C
100
AcDbDictionary
281
     1
  3
Layout1
350
1E
  3
Layout2
350
26
  3
Model
350
22
  0
DICTIONARY
  5
17
102
{ACAD_REACTORS
330
C
102
}
330
C
100
AcDbDictionary
281
     1
  3
Standard
350
18
  0
DICTIONARY
  5
19
102
{ACAD_REACTORS
330
C
102
}
330
C
100
AcDbDictionary
281
     1
  0
ACDBDICTIONARYWDFLT
  5
E
102
{ACAD_REACTORS
330
C
102
}
330
C
100
AcDbDictionary
281
     1
  3
Normal
350
F
100
AcDbDictionaryWithDefault
340
F
  0
DICTIONARY
  5
47
102
{ACAD_REACTORS
330
C
102
}
330
C
100
AcDbDictionary
281
     1
  3
A0
350
48
  3
A1
350
49
  3
A2
350
4A
  3
A3
350
4B
  3
A4
350
4C
  3
A5
350
4D
  3
A6
350
4E
  3
A7
350
4F
  3
A8
350
50
  3
A9
350
51
  3
B0
350
52
  3
B1
350
53
  3
B2
350
54
  3
B3
350
55
  3
B4
350
56
  3
B5
350
57
  3
B6
350
58
  3
B7
350
59
  3
B8
350
5A
  3
B9
350
5B
  3
C0
350
5C
  3
C1
350
5D
  3
C2
350
5E
  3
C3
350
5F
  3
C4
350
60
  3
C5
350
61
  3
C6
350
62
  3
C7
350
63
  3
C8
350
64
  3
C9
350
65
  3
D0
350
66
  3
D1
350
67
  3
D2
350
68
  0
LAYOUT
  5
1E
102
{ACAD_REACTORS
330
1A
102
}
330
1A
100
AcDbPlotSettings
  1

  2
none_device
  4

  6

 40
0.0
 41
0.0
 42
0.0
 43
0.0
 44
0.0
 45
0.0
 46
0.0
 47
0.0
 48
0.0
 49
0.0
140
0.0
141
0.0
142
1.0
143
1.0
 70
   688
 72
     1
 73
     0
 74
     5
  7

 75
    16
147
1.0
148
0.0
149
0.0
100
AcDbLayout
  1
Layout1
 70
     1
 71
     1
 10
0.0
 20
0.0
 11
420.0
 21
297.0
 12
0.0
 22
0.0
 32
0.0
 14
1.0000000000E+20
 24
1.0000000000E+20
 34
1.0000000000E+20
 15
-1.0000000000E+20
 25
-1.0000000000E+20
 35
-1.0000000000E+20
146
0.0
 13
0.0
 23
0.0
 33
0.0
 16
1.0
 26
0.0
 36
0.0
 17
0.0
 27
1.0
 37
0.0
 76
     0
330
1B
  0
LAYOUT
  5
26
102
{ACAD_REACTORS
330
1A
102
}
330
1A
100
AcDbPlotSettings
  1

  2
none_device
  4

  6

 40
0.0
 41
0.0
 42
0.0
 43
0.0
 44
0.0
 45
0.0
 46
0.0
 47
0.0
 48
0.0
 49
0.0
140
0.0
141
0.0
142
1.0
143
1.0
 70
   688
 72
     1
 73
     0
 74
     5
  7

 75
    16
147
1.0
148
0.0
149
0.0
100
AcDbLayout
  1
Layout2
 70
     1
 71
     2
 10
0.0
 20
0.0
 11
0.0
 21
0.0
 12
0.0
 22
0.0
 32
0.0
 14
0.0
 24
0.0
 34
0.0
 15
0.0
 25
0.0
 35
0.0
146
0.0
 13
0.0
 23
0.0
 33
0.0
 16
1.0
 26
0.0
 36
0.0
 17
0.0
 27
1.0
 37
0.0
 76
     0
330
23
  0
LAYOUT
  5
22
102
{ACAD_REACTORS
330
1A
102
}
330
1A
100
AcDbPlotSettings
  1

  2
none_device
  4
Letter_(8.50_x_11.00_Inches)
  6

 40
6.35
 41
6.35
 42
6.35000508
 43
6.35000508
 44
215.9
 45
279.4
 46
0.0
 47
0.0
 48
0.0
 49
0.0
140
0.0
141
0.0
142
1.0
143
1.0
 70
  1712
 72
     1
 73
     0
 74
     0
  7

 75
     0
147
1.0
148
0.0
149
0.0
100
AcDbLayout
  1
Model
 70
     1
 71
     0
 10
0.0
 20
0.0
 11
279.4
 21
215.9
 12
0.0
 22
0.0
 32
0.0
 14
0.0
 24
0.0
 34
0.0
 15
279.4
 25
215.9
 35
0.0
146
0.0
 13
0.0
 23
0.0
 33
0.0
 16
1.0
 26
0.0
 36
0.0
 17
0.0
 27
1.0
 37
0.0
 76
     0
330
1F
331
29
  0
MLINESTYLE
  5
18
102
{ACAD_REACTORS
330
17
102
}
330
17
100
AcDbMlineStyle
  2
Standard
 70
     0
  3

 62
   256
 51
90.0
 52
90.0
 71
     2
 49
0.5
 62
   256
  6
BYLAYER
 49
-0.5
 62
   256
  6
BYLAYER
  0
ACDBPLACEHOLDER
  5
F
102
{ACAD_REACTORS
330
E
102
}
330
E
  0
SCALE
  5
48
102
{ACAD_REACTORS
330
47
102
}
330
47
100
AcDbScale
 70
     0
300
1:1
140
1.0
141
1.0
290
     1
  0
SCALE
  5
49
102
{ACAD_REACTORS
330
47
102
}
330
47
100
AcDbScale
 70
     0
300
1:2
140
1.0
141
2.0
290
     0
  0
SCALE
  5
4A
102
{ACAD_REACTORS
330
47
102
}
330
47
100
AcDbScale
 70
     0
300
1:4
140
1.0
141
4.0
290
     0
  0
SCALE
  5
4B
102
{ACAD_REACTORS
330
47
102
}
330
47
100
AcDbScale
 70
     0
300
1:5
140
1.0
141
5.0
290
     0
  0
SCALE
  5
4C
102
{ACAD_REACTORS
330
47
102
}
330
47
100
AcDbScale
 70
     0
300
1:8
140
1.0
141
8.0
290
     0
  0
SCALE
  5
4D
102
{ACAD_REACTORS
330
47
102
}
330
47
100
AcDbScale
 70
     0
300
1:10
140
1.0
141
10.0
290
     0
  0
SCALE
  5
4E
102
{ACAD_REACTORS
330
47
102
}
330
47
100
AcDbScale
 70
     0
300
1:16
140
1.0
141
16.0
290
     0
  0
SCALE
  5
4F
102
{ACAD_REACTORS
330
47
102
}
330
47
100
AcDbScale
 70
     0
300
1:20
140
1.0
141
20.0
290
     0
  0
SCALE
  5
50
102
{ACAD_REACTORS
330
47
102
}
330
47
100
AcDbScale
 70
     0
300
1:30
140
1.0
141
30.0
290
     0
  0
SCALE
  5
51
102
{ACAD_REACTORS
330
47
102
}
330
47
100
AcDbScale
 70
     0
300
1:40
140
1.0
141
40.0
290
     0
  0
SCALE
  5
52
102
{ACAD_REACTORS
330
47
102
}
330
47
100
AcDbScale
 70
     0
300
1:50
140
1.0
141
50.0
290
     0
  0
SCALE
  5
53
102
{ACAD_REACTORS
330
47
102
}
330
47
100
AcDbScale
 70
     0
300
1:100
140
1.0
141
100.0
290
     0
  0
SCALE
  5
54
102
{ACAD_REACTORS
330
47
102
}
330
47
100
AcDbScale
 70
     0
300
2:1
140
2.0
141
1.0
290
     0
  0
SCALE
  5
55
102
{ACAD_REACTORS
330
47
102
}
330
47
100
AcDbScale
 70
     0
300
4:1
140
4.0
141
1.0
290
     0
  0
SCALE
  5
56
102
{ACAD_REACTORS
330
47
102
}
330
47
100
AcDbScale
 70
     0
300
8:1
140
8.0
141
1.0
290
     0
  0
SCALE
  5
57
102
{ACAD_REACTORS
330
47
102
}
330
47
100
AcDbScale
 70
     0
300
10:1
140
10.0
141
1.0
290
     0
  0
SCALE
  5
58
102
{ACAD_REACTORS
330
47
102
}
330
47
100
AcDbScale
 70
     0
300
100:1
140
100.0
141
1.0
290
     0
  0
SCALE
  5
59
102
{ACAD_REACTORS
330
47
102
}
330
47
100
AcDbScale
 70
     0
300
1/128" = 1'-0"
140
0.0078125
141
12.0
290
     0
  0
SCALE
  5
5A
102
{ACAD_REACTORS
330
47
102
}
330
47
100
AcDbScale
 70
     0
300
1/64" = 1'-0"
140
0.015625
141
12.0
290
     0
  0
SCALE
  5
5B
102
{ACAD_REACTORS
330
47
102
}
330
47
100
AcDbScale
 70
     0
300
1/32" = 1'-0"
140
0.03125
141
12.0
290
     0
  0
SCALE
  5
5C
102
{ACAD_REACTORS
330
47
102
}
330
47
100
AcDbScale
 70
     0
300
1/16" = 1'-0"
140
0.0625
141
12.0
290
     0
  0
SCALE
  5
5D
102
{ACAD_REACTORS
330
47
102
}
330
47
100
AcDbScale
 70
     0
300
3/32" = 1'-0"
140
0.09375
141
12.0
290
     0
  0
SCALE
  5
5E
102
{ACAD_REACTORS
330
47
102
}
330
47
100
AcDbScale
 70
     0
300
1/8" = 1'-0"
140
0.125
141
12.0
290
     0
  0
SCALE
  5
5F
102
{ACAD_REACTORS
330
47
102
}
330
47
100
AcDbScale
 70
     0
300
3/16" = 1'-0"
140
0.1875
141
12.0
290
     0
  0
SCALE
  5
60
102
{ACAD_REACTORS
330
47
102
}
330
47
100
AcDbScale
 70
     0
300
1/4" = 1'-0"
140
0.25
141
12.0
290
     0
  0
SCALE
  5
61
102
{ACAD_REACTORS
330
47
102
}
330
47
100
AcDbScale
 70
     0
300
3/8" = 1'-0"
140
0.375
141
12.0
290
     0
  0
SCALE
  5
62
102
{ACAD_REACTORS
330
47
102
}
330
47
100
AcDbScale
 70
     0
300
1/2" = 1'-0"
140
0.5
141
12.0
290
     0
  0
SCALE
  5
63
102
{ACAD_REACTORS
330
47
102
}
330
47
100
AcDbScale
 70
     0
300
3/4" = 1'-0"
140
0.75
141
12.0
290
     0
  0
SCALE
  5
64
102
{ACAD_REACTORS
330
47
102
}
330
47
100
AcDbScale
 70
     0
300
1" = 1'-0"
140
1.0
141
12.0
290
     0
  0
SCALE
  5
65
102
{ACAD_REACTORS
330
47
102
}
330
47
100
AcDbScale
 70
     0
300
1-1/2" = 1'-0"
140
1.5
141
12.0
290
     0
  0
SCALE
  5
66
102
{ACAD_REACTORS
330
47
102
}
330
47
100
AcDbScale
 70
     0
300
3" = 1'-0"
140
3.0
141
12.0
290
     0
  0
SCALE
  5
67
102
{ACAD_REACTORS
330
47
102
}
330
47
100
AcDbScale
 70
     0
300
6" = 1'-0"
140
6.0
141
12.0
290
     0
  0
SCALE
  5
68
102
{ACAD_REACTORS
330
47
102
}
330
47
100
AcDbScale
 70
     0
300
1'-0" = 1'-0"
140
12.0
141
12.0
290
     0
  0
ENDSEC
  0
EOF
